0
SECTION
2
HEADER
9
$INSUNITS
70
1
9
$ACADVER
1
AC1014
9
$HANDSEED
5
FFFF
0
ENDSEC
0
SECTION
2
TABLES
0
TABLE
2
VPORT
5
8
100
AcDbSymbolTable
0
ENDTAB
0
TABLE
2
LTYPE
5
5
100
AcDbSymbolTable
0
LTYPE
5
14
100
AcDbSymbolTableRecord
100
AcDbLinetypeTableRecord
2
BYBLOCK
70
0
0
LTYPE
5
15
100
AcDbSymbolTableRecord
100
AcDbLinetypeTableRecord
2
BYLAYER
70
0
0
ENDTAB
0
TABLE
2
LAYER
5
2
100
AcDbSymbolTable
70
2
0
LAYER
5
50
100
AcDbSymbolTableRecord
100
AcDbLayerTableRecord
2
0
70
0
6
CONTINUOUS
0
ENDTAB
0
TABLE
2
STYLE
5
3
100
AcDbSymbolTable
70
1
0
STYLE
5
11
100
AcDbSymbolTableRecord
100
AcDbTextStyleTableRecord
2
STANDARD
70
0
0
ENDTAB
0
TABLE
2
VIEW
5
6
100
AcDbSymbolTable
70
0
0
ENDTAB
0
TABLE
2
UCS
5
7
100
AcDbSymbolTable
70
0
0
ENDTAB
0
TABLE
2
APPID
5
9
100
AcDbSymbolTable
70
2
0
APPID
5
12
100
AcDbSymbolTableRecord
100
AcDbRegAppTableRecord
2
ACAD
70
0
0
ENDTAB
0
TABLE
2
DIMSTYLE
5
A
100
AcDbSymbolTable
70
1
0
ENDTAB
0
TABLE
2
BLOCK_RECORD
5
1
100
AcDbSymbolTable
70
1
0
BLOCK_RECORD
5
1F
100
AcDbSymbolTableRecord
100
AcDbBlockTableRecord
2
*MODEL_SPACE
0
BLOCK_RECORD
5
1B
100
AcDbSymbolTableRecord
100
AcDbBlockTableRecord
2
*PAPER_SPACE
0
ENDTAB
0
ENDSEC
0
SECTION
2
BLOCKS
0
BLOCK
5
20
100
AcDbEntity
100
AcDbBlockBegin
2
*MODEL_SPACE
0
ENDBLK
5
21
100
AcDbEntity
100
AcDbBlockEnd
0
BLOCK
5
1C
100
AcDbEntity
100
AcDbBlockBegin
2
*PAPER_SPACE
0
ENDBLK
5
1D
100
AcDbEntity
100
AcDbBlockEnd
0
ENDSEC
0
SECTION
2
ENTITIES
0
LWPOLYLINE
5
100
100
AcDbEntity
8
0
100
AcDbPolyline
90
4
70
1
43
0.0
10
-1.9728986461537612
20
-58.86961685679978
10
-1.9728986461537508
20
-91.869616856799681
10
-18.472898646153702
20
-91.869616856799681
10
-18.472898646153713
20
-58.869616856799787
0
ARC
5
101
100
AcDbEntity
8
0
100
AcDbCircle
10
-5.8946203271351658
20
-90.8438319761012
30
-2.1550480812081954e-48
40
0.12500000000000117
100
AcDbArc
50
-45.000000000138769
51
134.99999999986125
0
LINE
5
102
100
AcDbEntity
8
0
100
AcDbLine
10
-5.8062319794870616
20
-90.932220323749732
30
1.2325951644078304e-32
11
-5.8062319794870616
21
-91.192840161502758
31
1.1646568482593677e-31
0
ARC
5
103
100
AcDbEntity
8
0
100
AcDbCircle
10
-5.8946203271353639
20
-91.281228509151092
30
-9.4853166596600489e-47
40
0.12500000000000117
100
AcDbArc
50
-134.99999999982469
51
45.000000000010083
0
LINE
5
104
100
AcDbEntity
8
0
100
AcDbLine
10
-5.9830086747834121
20
-91.369616856799681
30
2.4651903288227335e-32
11
-8.6294552841905059
21
-91.369616856799681
31
-1.1013698635575821e-31
0
ARC
5
105
100
AcDbEntity
8
0
100
AcDbCircle
10
-8.7178436318384858
20
-91.281228509151035
30
8.727944728893191e-46
40
0.12500000000000563
100
AcDbArc
50
135.0000000001595
51
314.99999999978411
0
LINE
5
106
100
AcDbEntity
8
0
100
AcDbLine
10
-8.8062319794870554
20
-91.192840161502957
30
-1.2325951643995926e-32
11
-8.8062319794870536
21
-90.932220323749675
31
3.8821894941978924e-32
0
ARC
5
107
100
AcDbEntity
8
0
100
AcDbCircle
10
-8.7178436318388854
20
-90.8438319761012
30
-9.2667067491952399e-47
40
0.12499999999999278
100
AcDbArc
50
44.999999999781799
51
225.00000000009959
0
LINE
5
108
100
AcDbEntity
8
0
100
AcDbLine
10
-8.6294552841902341
20
-90.755443628453222
30
1.2325951644145629e-32
11
-5.98300867478327
21
-90.755443628452667
31
-1.2325951644078308e-32
0
ARC
5
109
100
AcDbEntity
8
0
100
AcDbCircle
10
-17.447113765455448
20
-79.291338537780931
30
8.7419135797256438e-17
40
0.12499999999999474
100
AcDbArc
50
-45.000000000077144
51
134.99999999992286
0
LINE
5
110
100
AcDbEntity
8
0
100
AcDbLine
10
-17.358725417807253
20
-79.379726885429363
30
8.7419135797256438e-17
11
-17.35872541780725
21
-82.026173494836115
31
6.2115031907166279e-31
0
ARC
5
111
100
AcDbEntity
8
0
100
AcDbCircle
10
-17.447113765455523
20
-82.114561842484491
30
8.7419135797256413e-17
40
0.12500000000000069
100
AcDbArc
50
-134.99999999984456
51
45.000000000033396
0
LINE
5
112
100
AcDbEntity
8
0
100
AcDbLine
10
-17.535502113103604
20
-82.202950190133052
30
8.7419135797256438e-17
11
-17.796121950857252
21
-82.202950190133052
31
8.7419135797256413e-17
0
ARC
5
113
100
AcDbEntity
8
0
100
AcDbCircle
10
-17.884510298505337
20
-82.114561842484505
30
0
40
0.1250000000000086
100
AcDbArc
50
135.00000000003109
51
314.99999999985033
0
LINE
5
114
100
AcDbEntity
8
0
100
AcDbLine
10
-17.972898646153709
20
-82.026173494836229
30
0
11
-17.972898646153705
21
-79.379726885429321
31
3.1057515953583139e-31
0
ARC
5
115
100
AcDbEntity
8
0
100
AcDbCircle
10
-17.884510298505376
20
-79.291338537781016
30
-3.6635817380539318e-46
40
0.12500000000000464
100
AcDbArc
50
44.999999999767397
51
224.99999999999193
0
LINE
5
116
100
AcDbEntity
8
0
100
AcDbLine
10
-17.796121950856694
20
-79.202950190133052
30
-4.9646811938397061e-44
11
-17.535502113103643
21
-79.202950190132498
31
8.7419135797256438e-17
0
ARC
5
117
100
AcDbEntity
8
0
100
AcDbCircle
10
-14.051176965172127
20
-59.458005204447893
30
-6.1611731261073925e-46
40
0.12500000000000464
100
AcDbArc
50
44.999999999863547
51
224.99999999986122
0
LINE
5
118
100
AcDbEntity
8
0
100
AcDbLine
10
-13.962788617523593
20
-59.36961685679978
30
-2.4651903288081329e-32
11
-11.316342008117173
21
-59.36961685679978
31
-2.3549016641991812e-33
0
ARC
5
119
100
AcDbEntity
8
0
100
AcDbCircle
10
-11.22795366046868
20
-59.458005204447922
30
3.8790865461747513e-46
40
0.12499999999999674
100
AcDbArc
50
-45.00000000001959
51
135.00000000011403
0
LINE
5
120
100
AcDbEntity
8
0
100
AcDbLine
10
-11.139565312820393
20
-59.546393552096269
30
5.7725418649907843e-44
11
-11.139565312820393
21
-59.807013389849459
31
-8.741913579725645e-17
0
ARC
5
121
100
AcDbEntity
8
0
100
AcDbCircle
10
-11.22795366046879
20
-59.895401737497693
30
-8.7419135797256413e-17
40
0.12500000000000069
100
AcDbArc
50
-134.99999999985263
51
44.999999999947029
0
LINE
5
122
100
AcDbEntity
8
0
100
AcDbLine
10
-11.316342008116882
20
-59.983790085146239
30
-8.7419135797256364e-17
11
-13.962788617523783
21
-59.983790085146225
31
2.3549016641436671e-33
0
ARC
5
123
100
AcDbEntity
8
0
100
AcDbCircle
10
-14.051176965171859
20
-59.895401737497657
30
-8.7419135797256413e-17
40
0.12499999999999079
100
AcDbArc
50
135.00000000014052
51
314.9999999998405
0
LINE
5
124
100
AcDbEntity
8
0
100
AcDbLine
10
-14.139565312820384
20
-59.807013389849565
30
-8.7419135797256413e-17
11
-14.139565312820661
21
-59.546393552095999
31
2.4651903288080092e-32
0
ARC
5
125
100
AcDbEntity
8
0
100
AcDbCircle
10
-8.717843631838571
20
-59.895401737497686
30
-8.7419135797256401e-17
40
0.12499999999999474
100
AcDbArc
50
135.00000000011804
51
315.00000000012034
0
LINE
5
126
100
AcDbEntity
8
0
100
AcDbLine
10
-8.8062319794870696
20
-59.807013389849551
30
-8.7419135797256413e-17
11
-8.8062319794870643
21
-59.546393552096276
31
-8.7419135797256487e-17
0
ARC
5
127
100
AcDbEntity
8
0
100
AcDbCircle
10
-8.7178436318388375
20
-59.458005204447865
30
4.8488581827184397e-46
40
0.12499999999998784
100
AcDbArc
50
44.999999999846274
51
225.00000000005988
0
LINE
5
128
100
AcDbEntity
8
0
100
AcDbLine
10
-8.6294552841902927
20
-59.369616856799794
30
-4.3111068319631572e-44
11
-5.9830086747838669
21
-59.36961685679978
31
-2.3549016641985949e-33
0
ARC
5
129
100
AcDbEntity
8
0
100
AcDbCircle
10
-5.8946203271353728
20
-59.458005204447922
30
3.9623400804996305e-46
40
0.12499999999999573
100
AcDbArc
50
-45.000000000011497
51
135.00000000011428
0
LINE
5
130
100
AcDbEntity
8
0
100
AcDbLine
10
-5.8062319794870749
20
-59.546393552096255
30
2.4651903288102393e-32
11
-5.8062319794870731
21
-59.807013389849473
31
-8.7419135797256413e-17
0
ARC
5
131
100
AcDbEntity
8
0
100
AcDbCircle
10
-5.8946203271354944
20
-59.895401737497693
30
-8.7419135797256413e-17
40
0.12499999999999921
100
AcDbArc
50
-134.99999999986039
51
44.999999999934658
0
LINE
5
132
100
AcDbEntity
8
0
100
AcDbLine
10
-5.983008674783596
20
-59.983790085146225
30
-8.7419135797256401e-17
11
-8.6294552841900725
21
-59.983790085145813
31
-8.7419135797256388e-17
0
ARC
5
133
100
AcDbEntity
8
0
100
AcDbCircle
10
-11.227953660468845
20
-91.281228509151035
30
6.4543690032185452e-46
40
0.12499999999999573
100
AcDbArc
50
-134.99999999979391
51
45.000000000206114
0
LINE
5
134
100
AcDbEntity
8
0
100
AcDbLine
10
-11.316342008116841
20
-91.369616856799666
30
2.4651903288222721e-32
11
-13.962788617523819
21
-91.369616856799681
31
8.79462851602072e-32
0
ARC
5
135
100
AcDbEntity
8
0
100
AcDbCircle
10
-14.051176965171788
20
-91.281228509151006
30
1.4791522952979641e-46
40
0.12500000000000266
100
AcDbArc
50
135.00000000017445
51
314.99999999977143
0
LINE
5
136
100
AcDbEntity
8
0
100
AcDbLine
10
-14.139565312820375
20
-91.192840161502957
30
-1.2325951644164432e-32
11
-14.139565312820373
21
-90.932220323749561
31
3.8821894941978924e-32
0
ARC
5
137
100
AcDbEntity
8
0
100
AcDbCircle
10
-14.051176965172017
20
-90.843831976101285
30
-9.6977163654368783e-47
40
0.12499999999999674
100
AcDbArc
50
44.999999999828425
51
224.99999999997408
0
LINE
5
138
100
AcDbEntity
8
0
100
AcDbLine
10
-13.962788617523438
20
-90.755443628453236
30
-1.2325951644078372e-32
11
-11.316342008117115
21
-90.755443628453222
31
-8.7946285160283614e-32
0
ARC
5
139
100
AcDbEntity
8
0
100
AcDbCircle
10
-11.227953660468454
20
-90.8438319761012
30
3.889861786580793e-46
40
0.12500000000000266
100
AcDbArc
50
-45.000000000158316
51
135.00000000022109
0
LINE
5
140
100
AcDbEntity
8
0
100
AcDbLine
10
-11.139565312820382
20
-90.93222032374976
30
8.2112050969296647e-44
11
-11.139565312820849
21
-91.192840161502403
31
-2.4651903288221429e-32
0
ARC
5
141
100
AcDbEntity
8
0
100
AcDbCircle
10
-17.884510298505273
20
-71.447895175817678
30
-2.6316200530257189e-47
40
0.12499999999999674
100
AcDbArc
50
135.00000000007833
51
315.00000000007486
0
LINE
5
142
100
AcDbEntity
8
0
100
AcDbLine
10
-17.972898646153705
20
-71.359506828169486
30
-1.2325951644150257e-32
11
-17.972898646153709
21
-68.713060218762806
31
0
0
ARC
5
143
100
AcDbEntity
8
0
100
AcDbCircle
10
-17.88451029850534
20
-68.624671871114543
30
3.632148369390225e-46
40
0.12499999999999674
100
AcDbArc
50
44.999999999865274
51
224.99999999996544
0
LINE
5
144
100
AcDbEntity
8
0
100
AcDbLine
10
-17.796121950856818
20
-68.536283523466437
30
1.232595164405706e-32
11
-17.535502113104044
21
-68.536283523466423
31
-8.4686230062791274e-33
0
ARC
5
145
100
AcDbEntity
8
0
100
AcDbCircle
10
-17.447113765455523
20
-68.624671871114543
30
8.7419135797256413e-17
40
0.12500000000000464
100
AcDbArc
50
-45.000000000035676
51
135.00000000013011
0
LINE
5
146
100
AcDbEntity
8
0
100
AcDbLine
10
-17.358725417807257
20
-68.713060218762919
30
8.7419135797256438e-17
11
-17.358725417807253
21
-71.35950682816943
31
0
0
ARC
5
147
100
AcDbEntity
8
0
100
AcDbCircle
10
-17.447113765455562
20
-71.447895175817763
30
8.7419135797256388e-17
40
0.12500000000000069
100
AcDbArc
50
-134.99999999978698
51
44.999998792798195
0
LINE
5
148
100
AcDbEntity
8
0
100
AcDbLine
10
-17.535502113103551
20
-71.536283523466409
30
8.7419135797256388e-17
11
-17.796121950856836
21
-71.536283523465883
31
1.2325951644150203e-32
0
ENDSEC
0
SECTION
2
OBJECTS
0
DICTIONARY
5
C
100
AcDbDictionary
3
ACAD_GROUP
350
D
3
ACAD_MLINESTYLE
350
17
0
DICTIONARY
5
D
100
AcDbDictionary
0
DICTIONARY
5
1A
330
C
100
AcDbDictionary
0
DICTIONARY
5
17
100
AcDbDictionary
0
ENDSEC
0
EOF
